VGJam Tabs Silent Hill 4: The Room
Silent Hill 4: The Room
"Waiting For You ~LIVE AT "Heaven's Night"~" - Guitar tab
Platform(s):Multi-platformPlayStation 2Xbox
Composed by:Akira Yamaoka
Soundtrack:Silent Hill 4 -The Room- Original Soundtracks [LC-1292] (track D1-22)
Tabbed by:Deezer
Last modified:2011-05-01
Print it:Original file (.TXT)
#----------------------------------PLEASE NOTE---------------------------------#
#This file is the author's own work and represents their interpretation of the #
#song. You may only use this file for private study, scholarship, or research. #
#------------------------------------------------------------------------------#

Silent Hill 4: The Room (Xbox, PlayStation 2)
"Waiting For You"

Originally composed by: Akira Yamaoka
------------------------------------------------------------------------------
Tabbed by: Deezer (deezer AT videogamejam DOT com)
For http://www.videogamejam.com
------------------------------------------------------------------------------

Symbols used:
     / = slide up
     \ = slide down
     ~ = vibrato
 harm. = natural harmonics
     x = muted string
     h = hammer-on
     p = pull-off
  b(N) = bend to pitch of fret N

Tuning: Down one half step - EbAbDbGbBbeb

Vocals: Mary Elizabeth McGlynn


Intro:
======

Guitar 2's chords behind the lead (w/ approximate strumming rhythm):

  E5      /     / C / /   /   / / G       /     / B5/ /   /   / /
|-----------------------------------------------------------------|
|-----------------------------------------------------------------|
|-----------------0-------------------------------4---------------|
|-2---------------2---------------0---------------4---------------|
|-2---------------3---------------2---------------2---------------|
|-0-------------------------------3-------------------------------| x4

Guitar 1:

 E5                  C               G              B5
-----------------7---------------7---------------------------------
-------7----8-----------10---------------8-------7-----------------
-/9-----------------------------------------------------9-------7--
-------------------------------------------------------------------
-------------------------------------------------------------------
-------------------------------------------------------------------

 E5                  C                 G                B5
----------------10----\-----------12----------------15------14~~~\-
-------7----8------------7----8----------------12------------------
--9---------------------------------------12-----------------------
-------------------------------------------------------------------
-------------------------------------------------------------------
-------------------------------------------------------------------

 E5                  C               G              B5
-----------------7---------------7---------------------------------
-------7----8-----------10---------------8-------7-----------------
-/9-----------------------------------------------------9-------7--
-------------------------------------------------------------------
-------------------------------------------------------------------
-------------------------------------------------------------------

 E5                  C                 G                B5
----------------10---\------------12----------------15------14---15-
-------7----8------------7----8----------------12-------------------
--9---------------------------------------12------------------------
--------------------------------------------------------------------
--------------------------------------------------------------------
--------------------------------------------------------------------


G1|-14---------------------------10------------------------------12--
U |------------------------------------------------------------------
I |------------------------------------------------------------------
T |------------------------------------------------------------------
A |------------------------------------------------------------------
R |------------------------------------------------------------------
  |   
  | E5                                                            Em
G2|--------------------------------------------------------------)0--
U |--------------------------------------------------------------(0--
I |--------------------------------------------------------------)0--
T |-2------------------------------------------------------------(2--
A |-2------------------------------------------------------------)2--
R |-0------------------------------------------------------------(0--

-----------------------------------------------------------------
-----------------------------------------------------------------
-----------------------------------------------------------------
-----------------------------------------------------------------
-----------------------------------------------------------------
-----------------------------------------------------------------


Verse:
======


G1|-------------2-----------------------0-----------------------|
U |-----------------------------------------0-------------------|
I |---------0----------------------------------------0----------|
T |-----2----------------------------------------------------2--|
A |-2-----------------------------------------------------------|
R |-------------------------------------------------------------|
  |                                                             |
  |        harm.................................................|
G2|-----------------------12------------------------------------|
U |---------------------------12--------------------------------|
I |--------12---------------------------------------------------|
T |-------------------------------------------------------------|
A |-------------------------------------------------------------|
R |-------------------------------------------------------------| x3


G1|-------------2-----------------------0-----------------------
U |-----------------------------------------3-------------------
I |---------0----------------------------------------0----------
T |-----2----------------------------------------------------2--
A |-2-----------------------------------------------------------
R |-------------------------------------------------------------
  |
  |        harm.................................................
G2|-----------------------12------------------------------------
U |---------------------------12--------------------------------
I |--------12---------------------------------------------------
T |-------------------------------------------------------------
A |-------------------------------------------------------------
R |-------------------------------------------------------------


G1|-------------------------------------------------0--------------
U |---------0-----------------------------------0-------0----------
I |---------------------0-------------------0---------------0------
T |-----2-----------------------2-------4-----------------------4--
A |-3-------------------------------5------------------------------
R |----------------------------------------------------------------
  |
  |                                                 harm...........
G2|-------------------------------------------------12-------------
U |-----------------------------------------------------12---------
I |----------------------------------------------------------------
T |----------------------------------------------------------------
A |----------------------------------------------------------------
R |----------------------------------------------------------------

 [Guitar 2 tacit.]

|-------------------------------------------------0--------------|
|---------0-----------------------------------0-------0----------|
|---------------------0-------------------0---------------0------|
|-----2-----------------------2-------4-----------------------4--|
|-3-------------------------------5------------------------------|
|----------------------------------------------------------------| x3



Chorus:
=======
 E5 C G B5 x4

Play Verse and Chorus again, then go to Pre-solo.

Pre-solo:
=========
(Guitar 2)

  E5
|-------------------------------------------------------------|
|-------------------------------------------------------------|
|-------------------------------------------------------------|
|---2-----2-----2-----2-----------2-----2-----2-----2---------|
|-x-2---x-2---x-2---x-2---------x-2---x-2---x-2---x-2---------|
|-x-0---x-0---x-0---x-0---------x-0---x-0---x-0---x-0---------| x2


Solo:
=====
(Guitar 1. Starts at the end of the pre-solo's last repeat.)

--------------------------------------------------------------
-----------------------------------------------------------7--
-------------------------------------------------------9------
--------------------------------------------------/9----------
--------------------------------------------------------------
--------------------------------------------------------------

----------------------------------------------------------
-7/8-----7--/10-----8---7---------------------------------
----------------------------7~~~~--7-------7---7h9-----7--
---------------------------------------9------------------
----------------------------------------------------------
----------------------------------------------------------

-----------7------\--/10-10-10\7-7-7-7\5-5-5-5/7-7-7-7\-----
-------8---8------\--------------------------------------/5-
-9----------------------------------------------------------
------------------------------------------------------------
------------------------------------------------------------
------------------------------------------------------------

-5h7p5--------5h7p5--------5h7p5--------5h7p5--------
-------5------------5------------5------------5------
-----------------------------------------------------
-----------------------------------------------------
-----------------------------------------------------

------------10h12-/15---12----------12---------//
------10h12--------------------15----------------
-9/11--------------------------------------------
-------------------------------------------------
-------------------------------------------------
-------------------------------------------------

/19-19-19-19\17-17-17-17\15-15-15-15\14-14-14-14h15p14-
-------------------------------------------------------
-------------------------------------------------------
-------------------------------------------------------
-------------------------------------------------------
-------------------------------------------------------

Post-solo:
==========

Here's everything I could make out.

(Guitar 1's E note here finishes off the solo and is held for a while.)

G1|-12--------------------------------------------------------------
U |-----------------------------------------------------------------
I |-----------------------------------------------------------------
T |-----------------------------------------------------------------
A |-----------------------------------------------------------------
R |-----------------------------------------------------------------
  |
  |
G2|-------------------------0---------------------------------------
U |---------0-------------------0-----------------------------------
I |-----------------------------------------0--------------------0--
T |-----2----------------------------------------2-----------2------
A |-3----------------------------------------------------3----------
R |-----------------------------------------------------------------
  |
  |        harm.....................................................
G3|--------12-------------------------------------------------------
U |-------------12-------------------------------7------------------
I |------------------------------------------------------7----------
T |--------------------------------------------------------------7--
A |-----------------------------------------------------------------
R |-----------------------------------------------------------------


G2|-----------------0------------------------------------------------
U |---------0-----------0--------------------------------------------
I |-------------0-----------0---------------0---------------------0--
T |-----4-----------------------4-----------------4----------4-------
A |-5---------------------------------------------------5------------
R |------------------------------------------------------------------
  |
  |
G3|-----------------------------------------------------------------
U |-----------------------------------------------------------------
I |-----------------------------------------------------------------
T |-----------------------------------------------------------------
A |-----------------------------------------------------------------
R |-----------------------------------------------------------------


G2|-----------------------------0----------------------------------
U |---------0---------------------------0--------------------------
I |-----------------------------------------0----------------------
T |-----2---------------------------------------2------------------
A |-3--------------------------------------------------------------
R |----------------------------------------------------------------
  |
  |        harm....................................................
G3|--------12------------------------------------------------------
U |-------------12------------------------------7------------------
I |-----------------------------------------------------7----------
T |-------------------------------------------------------------7--
A |----------------------------------------------------------------
R |----------------------------------------------------------------


G2|-------------------------0-----------------------0---------------
U |-----------------0---------------------------0-------------------
I |---------0-----------0-------0-----------2-----------------------
T |-----4-------4---------------------------------------------------
A |-5---------------------------------------------------------------
R |-----------------------------------------------------------------
  |
  |             harm.
G3|-----------------------------------------------------------------
U |-----------------------------------------------------------------
I |-------------7---------------------------------------------------
T |-----------------------------------------------------------------
A |-----------------------------------------------------------------
R |-----------------------------------------------------------------


Play Chorus again, and then Solo 2.

Solo 2:
=======
Note: All notes on B and E strings sound slightly sharp in the recording.

 E5                 C                     G          B5
---------------------------------------------------------------------
---------------------------------------------------------------------
----/12---12---12---11---11---12---12/14---------------------11------
--------------------------------------------12-------9---9-----------
---------------------------------------------------------------------
---------------------------------------------------------------------

 E5             C               G            B5
---------------------------------------------------------------------
---------------------------------------------10-------------------\--
-9----------9----------9---11---11---9-------------------------------
--------9----------9---------------------9---------------------------
---------------------------------------------------------------------
---------------------------------------------------------------------

 E5                 C                    G          B5
---------------------------------------------------------------------
---------------------------------------------------------------------
----/12---12---12---11~------12---12/14---------------------11-------
-------------------------------------------12~------9---9------------
---------------------------------------------------------------------
---------------------------------------------------------------------

 E5             C         G        B5
-----------------------------------------------
-----------------------------10----------------
-9----------9------11--------------------------
--------9--------------------------------12----
-----------------------------------------------
-----------------------------------------------

  E5            C             G               B5
------------------------------------------------------------------
----------------------------------10-----/12-----/15------17------
------------9------11------12-------------------------------------
----/9------------------------------------------------------------
------------------------------------------------------------------
------------------------------------------------------------------

 E5           C                     G                B5
--------------------------------------------------------------15-17-15-
--------17---20------20---20---19------19---19h20p19-\-----17----------
-----------------------------------------------------------------------
-----------------------------------------------------------------------
-----------------------------------------------------------------------
-----------------------------------------------------------------------

 E5                  C                  G                  B5
---------15h17p15-----------15h17p15-----------15h17p15-----------15-17-
-17---------------17---17------------17---17------------17---17---------
------------------------------------------------------------------------
------------------------------------------------------------------------
------------------------------------------------------------------------
------------------------------------------------------------------------

 E5                   C                 G                B5
-17/19------17---19------19---19---17------17---17---15------15---14h15p14-
---------------------------------------------------------------------------
---------------------------------------------------------------------------
---------------------------------------------------------------------------
---------------------------------------------------------------------------
---------------------------------------------------------------------------

 E5                  C                   G                B5
-12---------------------------------------\-------------------------
--------------------------------------------------------------------
--------------------------------------------------------------------
--------------------------------------------------------------------
--------------------------------------------------------------------

Chorus continues: E5 C G B5 x7

Guitar 2 ends on E5 and plays one last Em (like in the Intro).


Revision history:
 04/06/2005 - First draft.
 07/09/2005 - Fixed typo in Solo 1 (9h10 => 9h11)
 05/01/2011 - Moved the intro solo's last two notes up to the correct octave.
              Added Guitar 2 to Verse. Added other guitar part to post-solo.
              Changed some finger positions.

VGJam Tabs Silent Hill 4: The Room - "Waiting For You ~LIVE AT "Heaven's Night"~"
Tabs database last modified Tuesday, 01-Nov-2016 19:14:53 UTC.
Copyright © 1999 - 2016 VideoGameJam.com. All rights reserved.