VGJam Tabs Silent Hill: Origins
Silent Hill: Origins
"Blow Back" - Guitar tab
Platform(s):Multi-platformPlayStation PortablePlayStation 2
Composed by:Akira Yamaoka
Soundtrack:Silent Hill Zero Original Soundtracks [LC-1627] (track 17)
Tabbed by:Deezer
Last modified:2011-04-27
Date added:2008-02-24
Print it:Original file (.TXT)
#----------------------------------PLEASE NOTE---------------------------------#
#This file is the author's own work and represents their interpretation of the #
#song. You may only use this file for private study, scholarship, or research. #
#------------------------------------------------------------------------------#


Silent Hill: Origins (PSP)
"Blow Back"

Originally composed by: Akira Yamaoka
------------------------------------------------------------------------------
Tabbed by: Deezer (deezer AT videogamejam DOT com)
For http://www.videogamejam.com
------------------------------------------------------------------------------

Standard tuning - (low to high) EADGBe


Part A:
=======

||---------------------|---------------------|---------------------|
||---------------------|---------------------|---------------------|
||--------0------------|--------0------------|--------0------------|
||-----0---------------|-----0---------------|-----0---------------|
||--1------------------|--1------------------|--1------------------|
||---------------------|---------------------|---------------------|

  ---------------------|---------------------|---------------------|
  ---------------------|---------------------|---------------------|
  --------0------------|--------2------------|--------2------------|
  -----0---------------|-----0---------------|-----0---------------|
  --1------------------|--1------------------|--1------------------|
  ---------------------|---------------------|---------------------|

  ---------------------|---------------------||
  ---------------------|---------------------||
  --------2------------|--------2------------||
  -----0---------------|-----0---------------||
  --1------------------|--1------------------||
  ---------------------|---------------------|| x3


Part B:
=======


G1|----------0-------------|----0--------------0----|
U |------------------------|------------------------|
I |--2----------------2----|------------(2)---------|
T |------------------------|------------------------|
A |------------------------|------------------------|
R |------------------------|------------------------|
  |
G2|------------------------|------------------------|
U |------------------------|------------------------|
I |------------------------|------------------------|
T |--------0----------0----|--------0----------0----|
A |-----7----------7-------|-----7----------7-------|
R |--5----------5----------|--5----------5----------|


G1|------------------------|------------------------|
U |----------3-------------|----3--------------3----|
I |--3----------------3----|------------(3)---------|
T |------------------------|------------------------|
A |------------------------|------------------------|
R |------------------------|------------------------|
  |
G2|------------------------|------------------------|
U |------------------------|------------------------|
I |------------------------|------------------------|
T |--------0----------0----|--------0----------0----|
A |-----7----------7-------|-----7----------7-------|
R |--6----------6----------|--6----------6----------|

  Play four times.


Part C:
=======

||--------------------|----------------|----------------|----------------|
||--------------------|----------------|----------------|----------------|
||--------------------|----------------|----------------|----------------|
||--------------------|----------------|----------------|----------------|
||-------0------------|----------------|----------------|----------------|
||--1-----------------|----------------|----------------|----------------|

  --------------------|----------------|----------------|----------------||
  --------------------|----------------|----------------|----------------||
  --------------------|----------------|----------------|----------------||
  --------------------|----------------|----------------|----------------||
  -------0------------|----------------|----------------|----------------||
  --0-----------------|----------------|----------------|----------------|| x2


Revision history:
 02/24/2008 - First draft.
 04/27/2011 - Tabbed guitar 2 in Part B.

VGJam Tabs Silent Hill: Origins - "Blow Back"
Tabs database last modified Tuesday, 01-Nov-2016 19:14:53 UTC.
Copyright © 1999 - 2016 VideoGameJam.com. All rights reserved.