VGJam Tabs Super Star Wars
Super Star Wars
"Theme" - Guitar tab
Platform(s):Super NES
Tabbed by:Todolosguitar
Last modified:2000-03-21
Print it:Original file (.TXT)
Super Star Wars

-----------------------------------------------------6-----)--2times--
---------------------------------------------------------6------------
-------------------------10------------(-8----7---5-------------------
-----------8----------------------------------------------------------
--8888----------------------------------------------------------------
----------------------------------------------------------------------

------------------------------------------------------------------------
------------------------------------------------------------------------
--------8----------7-------8----------5---------------------------------
------------------------------------------------------------------------
------------------------------------------------------------------------
------------------------------------------------------------------------

VGJam Tabs Super Star Wars - "Theme"
Tabs database last modified Monday, 11-Jun-2018 15:19:29 CDT.
Copyright © 1999 - 2016 VideoGameJam.com. All rights reserved.