VGJam Tabs Guitaroo Man
Guitaroo Man
"Resurrection" - Guitar tab
Platform(s):PlayStation 2
Tabbed by:Deezer
Last modified:2019-05-30
Print it:Original file (.TXT)
#----------------------------------PLEASE NOTE---------------------------------#
#This file is the author's own work and represents their interpretation of the #
#song. You may only use this file for private study, scholarship, or research. #
#------------------------------------------------------------------------------#


Gitaroo Man (PlayStation 2)
"Resurrection"

Originally composed by: ?
------------------------------------------------------------------------------
Tabbed by: Deezer (deezer@kontek.net)
For http://www.kontek.net/vgjam/
------------------------------------------------------------------------------

Symbols used:
 / = slide up
 \ = slide down

Standard tuning: (low to high) EADGBe


Chords used:

 E         G         F#(add11) F(add#11) A(add9)   D5
------------------------------------------------------
-0---------0---------0---------0---------0---------3--
-1---------4---------3---------2---------6---------2--
-2---------5---------4---------3---------7---------0--
-2---------5---------4---------3---------7------------
-0---------3---------2---------1---------5------------


Intro / Main riff:
==================

(Strumming guideline; small variations occur as song progresses.)

-----------------------------------------------------------------
---------0-----------0---0---------------0---------------0-------
---------1---1-/-4---4---4-----4---------3---3-\-2---2---2-----2-
---------2---2-/-5-5-5---5---5-5---------4---4-\-3-3-3---3---3-3-
-2-------2---2-/-5-5-5---5---5-5-4-------4---4-\-3-3-3---3---3-3-
-0-----------0-/-3-3-----3---3---2-----------2-\-1-1-----1---1---

Repeat a lot.

Chorus:
=======

(There's more strumming, but you'll figure it out.)

-----------------------------------------------------------------
-0-------------------------------0-------------------------------
-6-------------------------------4-------------------------------
-7-------------------------------5-------------------------------
-7-------------------------------5-------------------------------
-5-------------------------------3-------------------------------

-----------------------------------------------------------------
-0-------------------------------3-------------------------------
-1-------------------------------2-------------------------------
-2-------------------------------0-------------------------------
-2---------------------------------------------------------------
-0---------------------------------------------------------------

-----------------------------------------------------------------
-0-------------------------------0-------------------------------
-6-------------------------------4-------------------------------
-7-------------------------------5-------------------------------
-7-------------------------------5-------------------------------
-5-------------------------------3-------------------------------

-----------------------------------------------------------------
-0-------------------------------0-------------------------------
-3-------------------------------2-------------------------------
-4-------------------------------3-------------------------------
-4-------------------------------3-------------------------------
-2-------------------------------1-------------------------------

Back to main riff.

Throughout all this, the lead guitar plays a sick 3+ minute solo that I cannot
tab at this moment.


Revision history:
 05/30/2019 - Fixed chord names. Changed incorrect chord to D5 in chorus.
 07/17/2002 - First draft.

VGJam Tabs Guitaroo Man - "Resurrection"
Tabs database last modified Saturday, 22-Feb-2020 20:56:47 CST.
Copyright © 1999 - 2019 VideoGameJam.com. All rights reserved.