VGJam Tabs Mega Man 2
Mega Man 2
"Flash Man" - Guitar tab
Platform(s):Nintendo Entertainment System
Tabbed by:Doom Reverb
Last modified:2018-03-16
Date added:2018-06-11
Print it:Original file (.TXT)
Hear it:MIDI file
Flash Man Stage - Mega Man 2 - Nintendo Entertainment System
Tabbed By: Doom Reverb
Email: DoomReverb88@gmail.com
Instagram: doom_reverb

Tuning: Standard

(Intro)
e|----------------------------------------|----------------------------------7--7------------|
B|----------------------------------------|--7-7-7-8--7-7-7-8---7-7-7-8-----------10--8-7----|
G|o--------4-7--6----5-4------------------|-------------------------------------------------o|
D|o------5--------7------5-7--5-----------|-------------------------------------------------o|
A|--/7---------------------------7-5---7--|--------------------------------------------------|
E|----------------------------------------|--------------------------------------------------| x3


e|----------------------------------------|------------------------------------------------|
B|----------------------------------------|--7-7-7-8--7-7-7-8----10-10-10-10--10-12~-------|
G|--------4-7--6----5-4-------------------|------------------------------------------------|
D|------5--------7------5-7--5------------|------------------------------------------------|
A|--7--------------------------7-5---7----|------------------------------------------------|
E|----------------------------------------|------------------------------------------------|

(Main)

e|--------------------------------------|---------------------------------------------|
B|-----12-10-12-----10------10-12-------|---------------------------------------10~---|
G|--9-------------------12---------9~---|--12--11-11---11-9------9~--------9-12-------|
D|--------------------------------------|--------------------12-----------------------|
A|--------------------------------------|---------------------------------------------|
E|--------------------------------------|---------------------------------------------|

e|--------------------------------------|---------------------------------------------|
B|-----12-10-12-----10------10-12-------|-----------------10---------------------12---|
G|--9-------------------12---------9~---|--12--11-11---12----11-9~---------/9-12------|
D|--------------------------------------|---------------------------------------------|
A|--------------------------------------|---------------------------------------------|
E|--------------------------------------|---------------------------------------------|


                                      (1)          (quick slides)
e|-----------------------------------|-----------------------------------------------------|
B|----/15~--14~--13~-----------------|-----------------12-------12-------------------------|
G|o---/14~--13~--12~---12-----------o|-----12-14--14/15----14/15-----15/14--12-------------|
D|o------------------------14~------o|--14--------------------------------------14-12~-----|
A|-----------------------------------|-----------------------------------------------------|
E|-----------------------------------|-----------------------------------------------------|


  (2)
e|---------------------------------17-19~----|
B|--------------/17----------16-19-----------|
G|--------14-------16-16-16------------------|
D|--14-17------------------------------------|
A|-------------------------------------------|
E|-------------------------------------------|
(Repeat from 'main')
VGJam Tabs Mega Man 2 - "Flash Man"
Tabs database last modified Monday, 11-Jun-2018 15:19:29 CDT.
Copyright © 1999 - 2016 VideoGameJam.com. All rights reserved.