VGJam Tabs Super Mario Land
Super Mario Land
"Underground theme" - Guitar tab
Platform(s):Game Boy
Composed by:Hirokazu "Hip" Tanaka
Tabbed by:Deezer
Last modified:2018-06-11
Date added:2018-06-11
Print it:Original file (.TXT)
Hear it:MIDI file
#----------------------------------PLEASE NOTE--------------------------------#
#This file is the author's own work and represents their interpretation of the#
#song. You may only use this file for private study, scholarship, or research.#
#-----------------------------------------------------------------------------#

Super Mario Land (Game Boy)
"Underground theme"

Originally composed by: Hirokazu "Hip" Tanaka
------------------------------------------------------------------------------
Tabbed by: Deezer (deezer AT videogamejam DOT com)
For http://www.videogamejam.com
------------------------------------------------------------------------------

Standard tuning: EADGBe (low to high)

A.K.A. the "pipe room" music. 

 
  w/echo effect
|--------------------------------------|----------------------------------|
|--------------------------------------|----------------------------------|
|--------------------------0-----------|----------------------------------|
|--------2--------------------2--------|--------2-------------------------|
|--3-----------0--2--3-----------------|--3-----------0--2--3-------------|
|-----------3--------------------------|-----------3----------------------|

Repeat forever (or until Mario exits the room).


Last modified: 2018-06-11

VGJam Tabs Super Mario Land - "Underground theme"
Tabs database last modified Monday, 11-Jun-2018 15:19:29 CDT.
Copyright © 1999 - 2016 VideoGameJam.com. All rights reserved.