VGJam Tabs Super Mario Bros.
Super Mario Bros.
"1-Up" - Guitar tab
Platform(s):Nintendo Entertainment System
Composed by:Koji Kondo
Tabbed by:Deezer
Last modified:2018-12-29
Date added:2018-12-29
Print it:Original file (.TXT)
#----------------------------------PLEASE NOTE--------------------------------#
#This file is the author's own work and represents their interpretation of the#
#song. You may only use this file for private study, scholarship, or research.#
#-----------------------------------------------------------------------------#

Super Mario Bros. (Nintendo Entertainment System)
"1-Up"

Originally composed by: Koji Kondo
------------------------------------------------------------------------------
Tabbed by: Deezer (deezer AT videogamejam DOT com)
For http://www.videogamejam.com
------------------------------------------------------------------------------

Standard tuning: EADGBe (low to high)

Tabbed two octaves lower than the original.


----------12----------15--
--------------12--15------
------12------------------
--14----------------------
--------------------------
--------------------------


Last modified: 2018-12-29

VGJam Tabs Super Mario Bros. - "1-Up"
Tabs database last modified Saturday, 29-Dec-2018 22:02:13 CST.
Copyright © 1999 - 2016 VideoGameJam.com. All rights reserved.