VGJam Tabs Super Mario Bros. 2
Super Mario Bros. 2
"Wart's room" - Guitar tab
Platform(s):Nintendo Entertainment System
Composed by:Koji Kondo
Tabbed by:Deezer
Last modified:2018-12-29
Date added:2018-12-29
Print it:Original file (.TXT)
#----------------------------------PLEASE NOTE--------------------------------#
#This file is the author's own work and represents their interpretation of the#
#song. You may only use this file for private study, scholarship, or research.#
#-----------------------------------------------------------------------------#

Super Mario Bros. 2 (Nintendo Entertainment System)
"Wart's room"

Originally composed by: Koji Kondo
------------------------------------------------------------------------------
Tabbed by: Deezer (deezer AT videogamejam DOT com)
For http://www.videogamejam.com
------------------------------------------------------------------------------

Standard tuning: EADGBe (low to high)


|--15-----14----------14-----13----------|
|----------------15-----------------14---|
|--15-----14----------14-----13----------|
|----------------15-----------------14---|
|----------------------------------------|
|----------------------------------------|

 --13-----12----------11-10-------------|
 ----------------13---------------------|
 --13-----12----------11-10-------------|
 ----------------13---------------------|
 ---------------------------------------|
 ---------------------------------------|

 --17-----16----------16-----15----------|
 ----------------17-----------------16---|
 --17-----16----------16-----15----------|
 ----------------17-----------------16---|
 ----------------------------------------|
 ----------------------------------------|

 --15-----14----------13-12-------------|
 ----------------15---------------------|
 --15-----14----------14-13-------------|
 ----------------15---------------------|
 ---------------------------------------|
 ---------------------------------------|

 --11-10-11-10-11-10-11-10-12-11-12-11-12-11-12-11-|
 --10--9-10--9-10--9-10--9-11-10-11-10-11-10-11-10-|
 --------------------------------------------------|
 --------------------------------------------------|
 --------------------------------------------------|
 --------------------------------------------------|
 
 --13-12-13-12-13-12-13-12-14-13-14-13-14-13-14-13-|
 --12-11-12-11-12-11-12-11-13-12-13-12-13-12-13-12-|
 --------------------------------------------------|
 --------------------------------------------------|
 --------------------------------------------------|
 --------------------------------------------------|

Repeat from beginning.


Last modified: 2018-12-29

VGJam Tabs Super Mario Bros. 2 - "Wart's room"
Tabs database last modified Saturday, 16-Feb-2019 13:07:25 CST.
Copyright © 1999 - 2019 VideoGameJam.com. All rights reserved.