VGJam Tabs Super Mario Bros. 3
Super Mario Bros. 3
"Toad's house" - Guitar tab
Platform(s):Nintendo Entertainment System
Composed by:Koji Kondo
Tabbed by:Deezer
Last modified:2018-12-29
Date added:2018-12-29
Print it:Original file (.TXT)
#----------------------------------PLEASE NOTE--------------------------------#
#This file is the author's own work and represents their interpretation of the#
#song. You may only use this file for private study, scholarship, or research.#
#-----------------------------------------------------------------------------#

Super Mario Bros. 3 (Nintendo Entertainment System)
"Toad's house"

Originally composed by: Koji Kondo
------------------------------------------------------------------------------
Tabbed by: Deezer (deezer AT videogamejam DOT com)
For http://www.videogamejam.com
------------------------------------------------------------------------------

Standard tuning: EADGBe (low to high)

Tabbed one octave lower than the original.


========
Guitar 1
========

  (D#)                            (F)
|--6------6------5-6-----6------|---8-------8------7--8------8------|
|--8------8------7-8-----8------|--10------10------9-10-----10------|
|-------------------------------|-----------------------------------|
|-------------------------------|-----------------------------------|
|-------------------------------|-----------------------------------|
|-------------------------------|-----------------------------------|

  (D#)                            (F)
 --6------6------5-6-----6------|---8-------8------7--8------8------|
 --8------8------7-8-----8------|--10------10------9-10-----10------|
 -------------------------------|-----------------------------------|
 -------------------------------|-----------------------------------|
 -------------------------------|-----------------------------------|
 -------------------------------|-----------------------------------|
 
  (F#)                                 (G#)
 ---9-------9-------8--9------9------|--11------11------10-11-----11------|
 --11------11------10-11-----11------|--13------13------12-13-----13------|
 ------------------------------------|------------------------------------|
 ------------------------------------|------------------------------------|
 ------------------------------------|------------------------------------|
 ------------------------------------|------------------------------------|
 
Repeat from beginning.


========
Guitar 2
========

  (D#)                        (F)
|---------------------------|---------------------------------|
|---------------------------|---------------------------------|
|--------8-----------8------|---------10-------------10-------|
|-----8-----8-----8-----8---|-----10------10-----10------10---|
|--6-----------6------------|--8--------------8---------------|
|---------------------------|---------------------------------|

  (D#)                        (F)
 ---------------------------|---------------------------------|
 ---------------------------|---------------------------------|
 --------8-----------8------|---------10-------------10-------|
 -----8-----8-----8-----8---|-----10------10-----10------10---|
 --6-----------6------------|--8--------------8---------------|
 ---------------------------|---------------------------------|

  (F#)                              (G#)
 ---------------------------------|-----------------------------------|
 ---------------------------------|-----------------------------------|
 ---------11-------------11-------|----------13--------------13-------|
 -----11------11-----11------11---|------13------13------13------13---|
 --9--------------9---------------|--11--------------11---------------|
 ---------------------------------|-----------------------------------|

Repeat from beginning.


Last modified: 2018-12-29

VGJam Tabs Super Mario Bros. 3 - "Toad's house"
Tabs database last modified Saturday, 29-Dec-2018 22:02:13 CST.
Copyright © 1999 - 2016 VideoGameJam.com. All rights reserved.