VGJam Tabs Silent Hill 2
Silent Hill 2
"Promise (Reprise)" - Guitar tab
Platform(s):PlayStation 2
Composed by:Akira Yamaoka
Soundtrack:Silent Hill 2 Original Soundtracks [KMCA-120] (track 06)
Tabbed by:Deezer
Last modified:2019-02-16
Date added:2019-02-16
Print it:Original file (.TXT)
#----------------------------------PLEASE NOTE--------------------------------#
#This file is the author's own work and represents their interpretation of the#
#song. You may only use this file for private study, scholarship, or research.#
#-----------------------------------------------------------------------------#

Silent Hill 2 (PlayStation 2)
"Promise (Reprise)"

Originally composed by: Akira Yamaoka
------------------------------------------------------------------------------
Tabbed by: Deezer (deezer AT videogamejam DOT com)
For http://www.videogamejam.com
------------------------------------------------------------------------------

All guitars: Standard tuning - EADGBe (low to high)

Legend:
 N.H. = natural harmonic
 A.H. = artificial harmonic (e.g. 5<17> = fret on 5, harmonic on 17)
 
*Instead of playing that one note as an artificial harmonic, you could tune
 the B string down to A and play a natural harmonic on its 5th fret.


Intro:
======
 
G1|--------10-----------10-----|--------8-----------8-----|
U |-----8------8-----8------8--|-----8-----8-----8-----8--|
I |--0------------8------------|--9-----------8-----------|
T |----------------------------|--------------------------|
A |----------------------------|--------------------------|
R |----------------------------|--------------------------|
  |
  |                      N.H.     N.H.              N.H.
G2|----------------------------|--------------------------|
U |----------------------------|--------------------------|
I |----------------------5-----|--12----------------7-----|
T |----------------------------|--------------------------|
A |----------------------------|--------------------------|
R |----------------------------|--------------------------|


G1|--------10-----------10-----|--------8-----------8-----|
U |-----8------8-----8------8--|-----8-----8-----8-----8--|
I |--0------------8------------|--9-----------8-----------|
T |----------------------------|--------------------------|
A |----------------------------|--------------------------|
R |----------------------------|--------------------------|
  |                                                       |
  |         N.H.  N.H.                 N.H.....     A.H.  |
G2|----------------------------|--------------------5<17>-|
U |----------------------------|--------------------------|
I |---------5-----12-----------|-------12--7--5-----------|
T |----------------------------|--------------------------|
A |----------------------------|--------------------------|
R |----------------------------|--------------------------|
 
Intro is played once.


Part A:
=======

Guitar 1 and 2 play their Intro parts.
Guitar 3 enters:

|----------------------------------------|------------------------------------|
|----------13-15-13----------------------|-13---------------------------------|
|-12-14-15----------15-14-12-------14-15-|-----15--14--12--15-14-12----14--12-|
|----------------------------------------|--------------------------15--------|
|----------------------------------------|------------------------------------|
|----------------------------------------|------------------------------------|

Play Part A eight times.


Part B:
=======

Guitar 1 tacit.
Guitar 2 plays its Intro part.
Guitar 3 plays the following:

G3|-------------------------------------------|
U |-------------------------------------------|
I |--19-0-19---19-0-19-0-15-0-15-0-15-0-15-0--|
T |-------------------------------------------|
A |-------------------------------------------|
R |-------------------------------------------|

   -------------------------------------------|
   -------------------------------------------|
   --17-0-17-0-17-0-17-0-15-0-15-0-17-0-17-0--|
   -------------------------------------------|
   -------------------------------------------|
   -------------------------------------------|

   -------------------------------------------|
   -------------------------------------------|
   --19-0-19-0-19-0-19-0-15-0-15-0-15-0-15-0--|
   -------------------------------------------|
   -------------------------------------------|
   -------------------------------------------|

   -------------------------------------------|
   -------------------------------------------|
   --17-0-17-0-17-0-17-0-15-0-15-0-17-0-17-0--|
   -------------------------------------------|
   -------------------------------------------|
   -------------------------------------------|

Play Part B twice.


Outro:
======

Similar to the Intro, but the Outro ends with an echo effect.

 
G1|--------10-----------10-----|--------8-----------8-----|
U |-----8------8-----8------8--|-----8-----8-----8-----8--|
I |--0------------8------------|--9-----------8-----------|
T |----------------------------|--------------------------|
A |----------------------------|--------------------------|
R |----------------------------|--------------------------|
  |
  |                      N.H.     N.H.              N.H.
G2|----------------------------|--------------------------|
U |----------------------------|--------------------------|
I |----------------------5-----|--12----------------------|
T |----------------------------|--------------------5-----|
A |----------------------------|--------------------------|
R |----------------------------|--------------------------|


G1|--------10-----------10-----|--------8-----------8-----|-------------------|
U |-----8------8-----8------8--|-----8-----8-----8-----8--|-------------------|
I |--0------------8------------|--9-----------8-----------|-------------------|
T |----------------------------|--------------------------|-------------------|
A |----------------------------|--------------------------|-------------------|
R |----------------------------|--------------------------|-------------------|
  |
  |                                           w/echo....
  |         N.H.  N.H.                 N.H.....     A.H.
G2|----------------------------|--------------------5<17>-|-------------------|
U |----------------------------|--------------------------|-------------------|
I |---------5-----12-----------|-------12--7--5-----------|-------------------|
T |----------------------------|--------------------------|-------------------|
A |----------------------------|--------------------------|-------------------|
R |----------------------------|--------------------------|-------------------|
 
Outro is played once.


Last modified: 2019-02-16

VGJam Tabs Silent Hill 2 - "Promise (Reprise)"
Tabs database last modified Saturday, 16-Feb-2019 13:07:25 CST.
Copyright © 1999 - 2019 VideoGameJam.com. All rights reserved.