VGJam Tabs Metroid
Metroid
"Item room" - Guitar, Bass tab
Platform(s):Nintendo Entertainment System
Composed by:Hirokazu "Hip" Tanaka
Tabbed by:Deezer
Last modified:2019-02-16
Date added:2019-02-16
Print it:Original file (.TXT)
#----------------------------------PLEASE NOTE--------------------------------#
#This file is the author's own work and represents their interpretation of the#
#song. You may only use this file for private study, scholarship, or research.#
#-----------------------------------------------------------------------------#

Metroid (Nintendo Entertainment System)
"Item room"

Originally composed by: Hirokazu "Hip" Tanaka
------------------------------------------------------------------------------
Tabbed by: Deezer (deezer AT videogamejam DOT com)
For http://www.videogamejam.com
------------------------------------------------------------------------------

Guitar: Standard tuning - EADGBe (low to high)
Bass: Standard tuning - EADG (low to high)

Time signature: 5/4

Guitar is tabbed two octaves lower than the original.


Guitar
-------------------------------------------------------------------------------
----------------11------------------------------10-----------------------------
--------------------------------10---------------------------------------------
----------------------------------------------------------------11-------------
-------------------------------------------------------------------------------
-------------------------------------------------------------------------------
Bass
------0-1-0-----------------------------------0-1-0----------------------------
2-3-4-------4-3-------------------------2-3-4-------4-3------------------------
-------------------------------------------------------------------------------
-------------------------------------------------------------------------------


Guitar
-------------------------------------------------------------------------------
--------------------------------------------------------12---------------------
----------------------------------------11-------------------------------------
------------------------10-----------------------------------------------------
-------------------------------------------------------------------------------
-------------------------------------------------------------------------------
Bass
------0-1-0-----------------------------------0-1-0----------------------------
2-3-4-------4-3-------------------------2-3-4-------4-3------------------------
-------------------------------------------------------------------------------
-------------------------------------------------------------------------------


Guitar
13--------------10----------------------
----------------------------------------
----------------------------------------
----------------------------------------
----------------------------------------
----------------------------------------
Bass
------0-1-0-----------------------------
2-3-4-------4-3-------------------------
----------------------------------------
----------------------------------------

Repeat from beginning.


Last modified: 2019-02-16

VGJam Tabs Metroid - "Item room"
Tabs database last modified Saturday, 16-Feb-2019 13:07:25 CST.
Copyright © 1999 - 2019 VideoGameJam.com. All rights reserved.