VGJam Tabs Super Mario World
Super Mario World
"Star World map screen" - Guitar tab
Platform(s):Super NES
Composed by:Koji Kondo
Tabbed by:Deezer
Last modified:2019-07-17
Date added:2019-07-17
Print it:Original file (.TXT)
#----------------------------------PLEASE NOTE--------------------------------#
#This file is the author's own work and represents their interpretation of the#
#song. You may only use this file for private study, scholarship, or research.#
#-----------------------------------------------------------------------------#

Super Mario World (Super NES)
"Star World map screen"

Originally composed by: Koji Kondo
------------------------------------------------------------------------------
Tabbed by: Deezer (deezer AT videogamejam DOT com)
For http://www.videogamejam.com
------------------------------------------------------------------------------

Standard tuning: EADGBe (low to high)


  (Dm7)                     (Cmaj7)
|---8---8---8-------8--------7--|-----7--7------7--------------|
|--10--10--10------10--------8--|-----8--8------8--10--11--12--|
|--10--10--10------10--------9--|-----9--9------9--------------|
|--------------12--------12-----|-----------10-----------------|
|-------------------------------|------------------------------|
|-------------------------------|------------------------------|

  (Dm7)                     (Cmaj7)
 ---8---8---8-------8--------7--|-----7--7------7--------------|
 --10--10--10------10--------8--|-----8--8------8--10--11--12--|
 --10--10--10------10--------9--|-----9--9------9--------------|
 --------------12--------12-----|-----------10-----------------|
 -------------------------------|------------------------------|
 -------------------------------|------------------------------|

  (Dm7)                     (Cmaj7)
 ---8---8---8-------8--------7--|-----7--7--7--7---------------|
 --10--10--10------10--------8--|-----8--8--8--8---------------|
 --10--10--10------10--------9--|-----9--9--9--9---------------|
 --------------12--------12-----|------------------------------|
 -------------------------------|------------------------------|
 -------------------------------|------------------------------|


Repeat from the beginning.


Last modified: 2019-07-17

VGJam Tabs Super Mario World - "Star World map screen"
Tabs database last modified Wednesday, 17-Jul-2019 21:01:15 CDT.
Copyright © 1999 - 2019 VideoGameJam.com. All rights reserved.