VGJam Tabs Super Mario World 2: Yoshi's Island
Super Mario World 2: Yoshi's Island
"Title screen" - Guitar tab
Platform(s):Super NES
Composed by:Koji Kondo
Tabbed by:Deezer
Last modified:2019-07-17
Date added:2019-07-17
Print it:Original file (.TXT)
#----------------------------------PLEASE NOTE--------------------------------#
#This file is the author's own work and represents their interpretation of the#
#song. You may only use this file for private study, scholarship, or research.#
#-----------------------------------------------------------------------------#

Super Mario World 2: Yoshi's Island (Super NES)
"Title screen"

Originally composed by: Koji Kondo
------------------------------------------------------------------------------
Tabbed by: Deezer (deezer AT videogamejam DOT com)
For http://www.videogamejam.com
------------------------------------------------------------------------------

Standard tuning: EADGBe (low to high)

Legend:
 h = hammer-on

Tabbed one octave lower than the original.


Part A:
=======

||-----------------------------------|-----------------------------------|
||-15----13h15-----------------13-12-|-----12----------------------------|
||-----------------------------------|-14-----14--12---------------------|
||-----------------------------------|---------------12---12-------------|
||-----------------------------------|-----------------------------------|
||-----------------------------------|-----------------------------------|

  -------------------------------------|---------------------------------||
  -----------12------------------------|-----------12--------------------||
  -------12-----14---12----------------|-------12-----14---12------------||
  -15----------------------12--12-14---|-15------------------------------||
  -------------------------------------|---------------------------------||
  -------------------------------------|---------------------------------|| x2


||-------------------------------12-|-13--12-13---12---------------------|
||-15---13h15-----------------15----|----------------15-13-15------------|
||----------------------------------|------------------------------------|
||----------------------------------|------------------------------------|
||----------------------------------|------------------------------------|
||----------------------------------|------------------------------------|

  -------------------------------------|---------------------------------||
  -12--------13---12-------------------|-12--------13-12-----------------||
  ------14----------------12-----------|------14---------12--------------||
  ---------------------------------12--|---------------------------------||
  -------------------------------------|---------------------------------||
  -------------------------------------|---------------------------------|| x2

||-------------------------|--------------------------||
||--6------5----------8----|--6------5----------------||
||--5------5-7-5-7----7----|--5------5-7-5-7----------||
||-----------9-7-9---------|-----------9-7-9----------||
||-------------------------|--------------------------||
||-------------------------|--------------------------|| x2


Play Part A once.


Part B:
=======

(Same as Part A, but the single-note lines are not repeated.)

|-----------------------------------|-----------------------------------|
|-15----13h15-----------------13-12-|-----12----------------------------|
|-----------------------------------|-14-----14--12---------------------|
|-----------------------------------|---------------12---12-------------|
|-----------------------------------|-----------------------------------|
|-----------------------------------|-----------------------------------|

 -------------------------------------|---------------------------------|
 -----------12------------------------|-----------12--------------------|
 -------12-----14---12----------------|-------12-----14---12------------|
 -15----------------------12--12-14---|-15------------------------------|
 -------------------------------------|---------------------------------|
 -------------------------------------|---------------------------------|

 -------------------------------12-|-13--12-13---12---------------------|
 -15---13h15-----------------15----|----------------15-13-15------------|
 ----------------------------------|------------------------------------|
 ----------------------------------|------------------------------------|
 ----------------------------------|------------------------------------|
 ----------------------------------|------------------------------------|

 -------------------------------------|---------------------------------|
 -12--------13---12-------------------|-12--------13-12-----------------|
 ------14----------------12-----------|------14---------12--------------|
 ---------------------------------12--|---------------------------------|
 -------------------------------------|---------------------------------|
 -------------------------------------|---------------------------------|

||-------------------------|--------------------------||
||--6------5----------8----|--6------5----------------||
||--5------5-7-5-7----7----|--5------5-7-5-7----------||
||-----------9-7-9---------|-----------9-7-9----------||
||-------------------------|--------------------------||
||-------------------------|--------------------------|| x2


Repeat Part B forever.


Last modified: 2019-07-17

VGJam Tabs Super Mario World 2: Yoshi's Island - "Title screen"
Tabs database last modified Wednesday, 17-Jul-2019 21:01:15 CDT.
Copyright © 1999 - 2019 VideoGameJam.com. All rights reserved.