VGJam Tabs Super Mario World
Super Mario World
"Valley of Bowser map screen" - Guitar, Bass tab
Platform(s):Super NES
Composed by:Koji Kondo
Tabbed by:Deezer
Last modified:2020-02-22
Date added:2020-02-22
Print it:Original file (.TXT)
#----------------------------------PLEASE NOTE--------------------------------#
#This file is the author's own work and represents their interpretation of the#
#song. You may only use this file for private study, scholarship, or research.#
#-----------------------------------------------------------------------------#

Super Mario World (Super NES)
"Valley of Bowser map screen"

Originally composed by: Koji Kondo
------------------------------------------------------------------------------
Tabbed by: Deezer (deezer AT videogamejam DOT com)
For VideoGameJam.com
------------------------------------------------------------------------------

Standard tuning.
 Guitar: EADGBe (low to high)
 Bass: EADG (low to high)

Legend:
 b = bend


Intro:
======

[Guitar]
e|---------------------------------|---------------------------------|
B|---------------------------------|-----------------------------9---|
G|---------------------------------|-----------------------------8---|
D|---------------------------------|-----------------------------7---|
A|---------------------------------|---------------------------------|
E|---------------------------------|---------------------------------|

[Bass]
G|-----------------------------7b8-|---------------------------------|
D|---------------------------------|-----------------------------7b8-|
A|---------------------------------|---------------------------------|
E|---0-0-0-0---0-0---0-0---0-------|---0-0-0-0---0-0---0-0---0-------|


Main Loop:
==========

[Guitar]
e|---------------------------------|---------------------------------|
B|-8-------------------------------|-----------------------------8---|
G|-7-------------------------------|-----------------------------7---|
D|-6-------------------------------|-----------------------------6---|
A|---------------------------------|---------------------------------|
E|---------------------------------|---------------------------------|

[Bass]
G|-----------------------------7b8-|---------------------------------|
D|---------------------------------|-----------------------------7b8-|
A|---------------------------------|---------------------------------|
E|---0-0-0-0---0-0---0-0---0-------|---0-0-0-0---0-0---0-0---0-------|


[Guitar]
e|---------------------------------|---------------------------------|
B|-9-------------------------------|-----------------------------9---|
G|-8-------------------------------|-----------------------------8---|
D|-7-------------------------------|-----------------------------7---|
A|---------------------------------|---------------------------------|
E|---------------------------------|---------------------------------|

[Bass]
G|-----------------------------7b8-|---------------------------------|
D|---------------------------------|-----------------------------7b8-|
A|---------------------------------|---------------------------------|
E|---0-0-0-0---0-0---0-0---0-------|---0-0-0-0---0-0---0-0---0-------|

Repeat Main Loop forever.


Last modified: 2020-02-22

VGJam Tabs Super Mario World - "Valley of Bowser map screen"
Tabs database last modified Saturday, 22-Feb-2020 20:56:47 CST.
Copyright © 1999 - 2019 VideoGameJam.com. All rights reserved.