VGJam Tabs Twisted Metal: Head On - Extra Twisted Edition
Twisted Metal: Head On - Extra Twisted Edition
"Lost theme" - Guitar tab
Platform(s):PlayStation 2
Tabbed by:Deezer
Last modified:2022-03-17
Date added:2022-03-17
Print it:Original file (.TXT)
#----------------------------------PLEASE NOTE--------------------------------#
#This file is the author's own work and represents their interpretation of the#
#song. You may only use this file for private study, scholarship, or research.#
#-----------------------------------------------------------------------------#

Twisted Metal: Head On - Extra Twisted Edition (PlayStation 2)
"Lost theme"

------------------------------------------------------------------------------
Tabbed by: Deezer (deezer AT videogamejam DOT com)
For VideoGameJam.com
------------------------------------------------------------------------------

Standard tuning.

Legend:
 / = slide up
 \ = slide down
 pm... = palm mute


Intro:
======

---------------------------------|
---------------------------------|
---------------------------------|
---------------------------------|
---------------------------------|
-------------------------------0-|

Part A:
=======

---------------------------------|---------------------------------|
---------------------------------|---------------------------------|
---------------------------------|---------------------------------|
---------------------------------|---------------------------------|
-------------------0---1---------|-------------------1---0---------|
-3-0-3-0-----------------------0-|-3-0-3-0-----------------------0-|

---------------------------------|---------------------------------|
---------------------------------|---------------------------------|
---------------------------------|---------------------------------|
---------------------------------|-5---------------2-----3---2-----|
-------------------0---1---------|-3---------------0-----1---0-----|
-3-0-3-0-------------------------|---------------------------------|


Part B:
=======

A second guitar enters.

|---------------------------------|---------------------------------
|-2-----3-------------------------|---------------------------------
|-------------3---------------2---|-2-----3-------------------------
|---------------------------------|-------------4---------------0---
|---------------------------------|---------------------------------
|---------------------------------|---------------------------------
|
|---------------------------------|---------------------------------
|---------------------------------|---------------------------------
|---------------------------------|---------------------------------
|-5---5---------------------------|-5---5---------------------------
|-5---5---------------------------|-5---5---------------------------
|-3---3---------------------------|-3---3---------------------------


|---------------------------------|---------------------------------
|---------------------------------|---------------------------------
|-0-----------------------0---/---|-12--------------------------\---
|---------------------------------|---------------------------------
|---------------------------------|---------------------------------
|---------------------------------|---------------------------------
|                                    * pick this note after the slide.
|---------------------------------|---------------------------------
|---------------------------------|---------------------------------
|---------------------------------|---------------------------------
|-5---5---------------------------|-5---5---------------------------
|-5---5---------------------------|-5---5---------------------------
|-3---3---------------------------|-3---3---------------------------


Part C:
=======

---------------------------------|---------------------------------
---------------------------------|---------------------------------
-----4-5-4-------4-5-4-------4-5-|-4-------4-5-4-------4-5-4-------
-2-5-------5-2-5-------5-2-5-----|---5-2-5-------5-2-5-------5-2-5-
---------------------------------|---------------------------------
---------------------------------|---------------------------------
 pm...............................................................

---------------------------------|---------------------------------
---------------------------------|---------------------------------
-4-5-4-------4-5-4-------4-5-4---|-----4-5-4-------4-5-4-------4-5-
-------5-2-5-------5-2-5-------5-|-2-5-------5-2-5-------5-2-5-----
---------------------------------|---------------------------------
---------------------------------|---------------------------------
 pm...............................................................
 

Last modified: 2022-03-17

VGJam Tabs Twisted Metal: Head On - Extra Twisted Edition - "Lost theme"
Tabs database last modified Thursday, 17-Mar-2022 20:05:30 CDT.
Copyright © 1999 - 2019 VideoGameJam.com. All rights reserved.